Game:  Guess the tablature - Guess the PF song
#1
How it works: I'll post a small excerpt of tablature from a Pink Floyd song, and you guess which one it is. You might have to play it to figure it out!

If you guess correctly, then you get to post tabs to guess from.

Here's mine:

-------6>5------------------------------------------------------------------------
------------6/8\------------------------------------------------------------------
--6/7--------------(17)>15>(19)>15--------15--17>(18)>17>15--17--17>15--
------------------------------------15/17-----------------------------------------
----------------------------------------------------------------------------------
----------------------------------------------------------------------------------
Reply
#2
Looks like it could be from shine on, but i might be wrong, this could be fun
Reply
#3
Great idea Trig, but this is pretty hard, let me go play this...
Reply
#4
frettingfingers Wrote:Looks like it could be from shine on, but i might be wrong, this could be fun
You got it :)

Shine on Pt. 2, guitar solo after the keyboard solo right before the lyrics

Feel free to do the next post
Reply
#5
---------------------10--10--------
-13---10-----10----- ---------12-12
----------12-----10-----------12-12
------------------------------------
------------------------------------
------------------------------------

This game is so fun this is on a few forums i have been on.




Edited By AmusedToDeath726 on 1114394511
Reply
#6
Looks like Money, but I am at work and unable to test.



Edited By Albatross on 1114447583
Reply
#7
AmusedToDeath726 Wrote:---------------------10--10--------
-13---10-----10----- ---------12-12
----------12-----10-----------12-12
------------------------------------
------------------------------------
------------------------------------

This game is so fun this is on a few forums i have been on.
Looks like ABITW, but slightly wrong.
Reply
#8
yeah, thats what i was aiming for :D
Reply
#9
another brick in the wall part 2
Liam Creedon - Session Musician / Tutor
Http://www.liamcreedon.co.uk

Lead Guitarist of Wish You Were Floyd
Reply
#10
how about this (easy)

e:----------------------------------------------2/4--4/2-----------
B:------3------5---4----------------------------2/4--4/2--3/5--5/3-
G:--2/4----------3-------4-2-0----------------------------2/4--4/2-
D:-----------------------------0--------0-0------------------------
A:------------------------------------2----------------------------
E:-----------------------------------------------------------------
Reply


Possibly Related Threads...
Thread Author Replies Views Last Post
  Ever have a  parent say "Even that don't sound goo paparazzi! 11 1,729 08-23-2007, 10:11 AM
Last Post: cevor
  Who all can  read music? paparazzi! 23 2,376 08-21-2007, 02:50 PM
Last Post: Freedom420
  Guess the Pink Floyd Guitar Tab - the 2nd S.H.E.E.P 77 7,176 08-05-2006, 05:48 AM
Last Post: Wings on the Pig
  What exactly is "Rhythm  Guitar"??? Nunca 25 1,579 06-15-2006, 07:10 AM
Last Post: mmarconi
  Anybody have 'Not Now John' and 'One Of My Turns' - Solo Tablature? AmusedToDeath726 2 539 06-05-2005, 04:35 AM
Last Post: pinkfloydfan1



Users browsing this thread: 1 Guest(s)