Game:  Guess the tablature - Guess the PF song
#21
GRAPHITE_BLIMPS Wrote:
S.H.E.E.P Wrote:|---------0------------0-----------------------------------------------|
|------------3------------3--------------------------------------------|
|-2>(4)-0------2>(4)-0------2>(4)--2-0---------------------------------|
|--------------------------------------2-0-----------------------------|
|------------------------------------------2-1-0---------2vvvvvvv------|
|------------------------------------------------3>(4)p0---------------| c if u can get this
what the hell is that?
in the flesh
Reply
#22
S.H.E.E.P Wrote:
GRAPHITE_BLIMPS Wrote:
S.H.E.E.P Wrote:|---------0------------0-----------------------------------------------|
|------------3------------3--------------------------------------------|
|-2>(4)-0------2>(4)-0------2>(4)--2-0---------------------------------|
|--------------------------------------2-0-----------------------------|
|------------------------------------------2-1-0---------2vvvvvvv------|
|------------------------------------------------3>(4)p0---------------| c if u can get this
what the hell is that?
in the flesh
oh ok!

heres one -

E------15--------15--------18--------18--------11--------11-
B------13--------13--------16--------16---------9---------9--
G-------------------------------------------------------------
D-------------------------------------------------------------
A-------------------------------------------------------------
E-------------------------------------------------------------
Reply
#23
all i can think of is shine on
Reply
#24
S.H.E.E.P Wrote:all i can think of is shine on
nooooooo...

its on the Division Bell
Reply
#25
high hopes but slightly wrong
Liam Creedon - Session Musician / Tutor
Http://www.liamcreedon.co.uk

Lead Guitarist of Wish You Were Floyd
Reply
#26
my turn

-12-------10-10---8-7-8-|-8-8-7-5-7-0--0h1p0----------
----10-------------------|--------------------------1h3----
-------10----------------|------------------------------
-------------------------|------------------------------
-------------------------|------------------------------
-------------------------|------------------------------

i tabbed that well aswell




Edited By pinkfloydfan1 on 1114966648
Liam Creedon - Session Musician / Tutor
Http://www.liamcreedon.co.uk

Lead Guitarist of Wish You Were Floyd
Reply
#27
actually that high hopes is correct my apologies see if ya cn get the one i just done
Liam Creedon - Session Musician / Tutor
Http://www.liamcreedon.co.uk

Lead Guitarist of Wish You Were Floyd
Reply
#28
pinkfloydfan1 Wrote:my turn

-12-------10-10---8-7-8-|-8-8-7-5-7-0--0h1p0----------
----10-------------------|--------------------------1h3----
-------10----------------|------------------------------
-------------------------|------------------------------
-------------------------|------------------------------
-------------------------|------------------------------

i tabbed that well aswell
can you giv me a hint?
Reply
#29
delicate sound of thunder
memntary lapse
Liam Creedon - Session Musician / Tutor
Http://www.liamcreedon.co.uk

Lead Guitarist of Wish You Were Floyd
Reply
#30
try playing it with distortion and then ull probs no wot it is
Liam Creedon - Session Musician / Tutor
Http://www.liamcreedon.co.uk

Lead Guitarist of Wish You Were Floyd
Reply


Possibly Related Threads...
Thread Author Replies Views Last Post
  Ever have a  parent say "Even that don't sound goo paparazzi! 11 1,783 08-23-2007, 10:11 AM
Last Post: cevor
  Who all can  read music? paparazzi! 23 2,463 08-21-2007, 02:50 PM
Last Post: Freedom420
  Guess the Pink Floyd Guitar Tab - the 2nd S.H.E.E.P 77 7,690 08-05-2006, 05:48 AM
Last Post: Wings on the Pig
  What exactly is "Rhythm  Guitar"??? Nunca 25 1,628 06-15-2006, 07:10 AM
Last Post: mmarconi
  Anybody have 'Not Now John' and 'One Of My Turns' - Solo Tablature? AmusedToDeath726 2 585 06-05-2005, 04:35 AM
Last Post: pinkfloydfan1



Users browsing this thread: 1 Guest(s)