Game:  Guess the tablature - Guess the PF song
#31
My guess is 'Signs Of Life' but it's not how I play it!!!
Reply
#32
parisonj Wrote:My guess is 'Signs Of Life' but it's not how I play it!!!
ditto (!)
Reply
#33
Solo:
G C G C
e|-----10---------------------------------------------------------------------------|
B|-12--------13\12/13-----------------------13--13---12-----------------------------|
G|-12------------------------------------12-----12----------------------------------|
D|------------------------14\13/14----14--------12-------12---10\9/10--10\12/10-----|
A|----------------------------------------------------------------------------------|
E|----------------------------------------------------------------------------------|

G C D C
e|-----------------------------------------------12--14-----------10---12-----------|
B|----------12--12----------13---------------15------15--15---13-------13----13-----|
G|------12--12--12---14\12----------------------------------------------------------|
D|--10---------------------------14\13/14-------------------------------------------|
A|----------------------------------------------------------------------------------|
E|----------------------------------------------------------------------------------|

G
e|----------------------------------------------------------------------------------|
B|--13\12---13\12-------------------------------------------------------------------|
G|-----------------12---------------------------------------------------------------|
D|---------------------12---10--9---------------------------------------------------|
A|---------------------------------10-----------------------------------------------|
E|----------------------------------------------------------------------------------|

long lol take a hit at this...(the solo of the song)
Reply
#34
parisonj Wrote:My guess is 'Signs Of Life' but it's not how I play it!!!
it was actualy yet another movie 1st solo
Liam Creedon - Session Musician / Tutor
Http://www.liamcreedon.co.uk

Lead Guitarist of Wish You Were Floyd
Reply
#35
S.H.E.E.P Wrote:Solo:
G C G C
e|-----10---------------------------------------------------------------------------|
B|-12--------13\12/13-----------------------13--13---12-----------------------------|
G|-12------------------------------------12-----12----------------------------------|
D|------------------------14\13/14----14--------12-------12---10\9/10--10\12/10-----|
A|----------------------------------------------------------------------------------|
E|----------------------------------------------------------------------------------|

G C D C
e|-----------------------------------------------12--14-----------10---12-----------|
B|----------12--12----------13---------------15------15--15---13-------13----13-----|
G|------12--12--12---14\12----------------------------------------------------------|
D|--10---------------------------14\13/14-------------------------------------------|
A|----------------------------------------------------------------------------------|
E|----------------------------------------------------------------------------------|

G
e|----------------------------------------------------------------------------------|
B|--13\12---13\12-------------------------------------------------------------------|
G|-----------------12---------------------------------------------------------------|
D|---------------------12---10--9---------------------------------------------------|
A|---------------------------------10-----------------------------------------------|
E|----------------------------------------------------------------------------------|

long lol take a hit at this...(the solo of the song)
I haven't tried to play it yet but is it Mother?
Reply
#36
yeppp!!
Reply
#37
wow, i didn't even learn how to play it like that.
Reply
#38
e---10--9------7--5------5--3------0--2-----
B---10--10-----8--7------5--3------3--3-----
G---11--9------7--7------6--4------2--2-----
D---0---0------0--0------0--0------0--0-----
A-------------------------------------------
E-------------------------------------------


you guys should know this one!
Reply
#39
I'm pretty sure it's Run Like Hell.
Reply
#40
Nice Job!!
Reply


Possibly Related Threads...
Thread Author Replies Views Last Post
  Ever have a  parent say "Even that don't sound goo paparazzi! 11 1,558 08-23-2007, 10:11 AM
Last Post: cevor
  Who all can  read music? paparazzi! 23 2,143 08-21-2007, 02:50 PM
Last Post: Freedom420
  Guess the Pink Floyd Guitar Tab - the 2nd S.H.E.E.P 77 5,946 08-05-2006, 05:48 AM
Last Post: Wings on the Pig
  What exactly is "Rhythm  Guitar"??? Nunca 25 1,443 06-15-2006, 07:10 AM
Last Post: mmarconi
  Anybody have 'Not Now John' and 'One Of My Turns' - Solo Tablature? AmusedToDeath726 2 447 06-05-2005, 04:35 AM
Last Post: pinkfloydfan1



Users browsing this thread: 1 Guest(s)