Post Reply 
Game:  Guess the tablature - Guess the PF song
Author Message
EGT124 Offline
Meddle

Posts: 659
Joined: Apr 2005
Reputation: 1
Post: #171
 
Have a Cigar.

My turn:
e:---------------------------------------------------------|
B:---------------------------------------------------------|
G:---------------------------------------------------------|
D:---------------------------------7---7h9-----------------|
A:-------------5--5h7--5---7--7/9-----------8---10--10/12--|
E:--3----5--7----------------------------------------------|

e:---------------------------------------------------------|
B:---------------------------------------------------------|
G:------10--10-----10----------10h12--12h14--12h10---------|
D:--10--10--10h12--10---10h12------------------------------|
A:---------------------------------------------------------|
E:---------------------------------------------------------|

e:---------------------------------------------------------|
B:---------------------------------------------------------|
G:---------------------------------------------------------|
D:--12--10-----------------------------12--12--12h14--12---|
A:----------12--10h12--10---12--12/14----------------------|
E:---------------------------------------------------------|

e:---------------------------------------------------------|
B:---------------------------------------------------------|
G:------------14--14--14h16--------------------------------|
D:--14--14/16----------------15-14~--10--10h12--10h12--10--|
A:---------------------------------------------------------|
E:---------------------------------------------------------|

e:---------------------------------------------------------|
B:---------------------------------------------------------|
G:---------------------------------------------------------|
D:--5/7---5------------------------------------------------|
A:-----------7--5---------------------5--5h7--5h7--5-------|
E:-----------------7---5---3--5--5h7-----------------------|

e:---------------------------------------------------------|
B:---------------------------------------------------------|
G:--------------------------------------------10-----10----|
D:-------7h9--9b(10)b9--7-----7--9---10--(10)-10h12--10h12-|
A:--7h9--------------------9-------------------------------|
E:---------------------------------------------------------|

e:---------------------------------------------------------|
B:---------------------------------------------------------|
G:--10--------------10--10---10----------------------------|
D:--10h12--12b(13)--10--10---10h12--10-----5---------------|
A:----------------------------------10h12--5h7--5--X3--5---|
E:---------------------------------------------------------|

e:---------------------------------------------------------|
B:---------------------------------------------------------|
G:---------------------------------------------------------|
D:---------------------------------------------------------|
A:--5\3--3\2--0--0h2--0h2--2b(3)-2--0--2---------5h7-------|
E:----------------------------------------1----------------|

e:---------------------------------------------------------|
B:---------------------------------------------------------|
G:--------10-----10---------10--10-----------10------------|
D:-10-----10h12--10h12b(13)-10--10----10h12------12--------|
A:-10h12---------------------------------------------------|
E:---------------------------------------------------------|
06-11-2005 09:46 AM
Find all posts by this user Quote this message in a reply
frettingfingers Offline
Piper at the Gates of Dawn

Posts: 42
Joined: Aug 2004
Reputation: 0
Post: #172
 
If im not mistaken that is the solo for Fat old sun, great song. Someone feel free to have my go as i am in work
06-12-2005 02:34 AM
Find all posts by this user Quote this message in a reply
pinkfloydfan1 Offline
Division Bell

Posts: 4,450
Joined: Aug 2004
Reputation: 36
Post: #173
 
[code:1]--------------------------------1514VVVVVV-------------------------------
--18(20)vvvvvvvv\-----------------------------1512--15(17)vvvv--1512--
----------------------14(16)---------------------------------------------
--------------------------------------------------------------------------
--------------------------------------------------------------------------
--------------------------------------------------------------------------


----------------------------------------------------
---(15)1412\/-1412-------------------------------
------------------------11(12)===11--9--9\7-------
-----------------------------------------------5\---
----------------------------------------------------
----------------------------------------------------
[/code:1]

clue
pulse

[Image: jedi.jpg]
06-12-2005 04:31 AM
Visit this user's website Find all posts by this user Quote this message in a reply
EGT124 Offline
Meddle

Posts: 659
Joined: Apr 2005
Reputation: 1
Post: #174
 
I give up :D .

This was a fun game, so I'll revive it with a slightly easier song.

e|-----------------------------3--------------------------|
b|---------------------------3---3------------------------|
g|-15-17---------------------------5b7-(5)---5pb7r(5)p3--|
d|-------17--(17)--(17)\--------------------------------5-|
a|--------------------------------------------------------|
e|--------------------------------------------------------|

e|----------------------18p15----|
b|----------------------15----15-|
g|-5-3---------------------------|
d|-----5--(5)--------------------|
a|-------------------------------|
e|-------------------------------|

e|-18----(18)--17b18-17-------------|----------------------------------18p15----18p15----|
b|-15----(15)-----------------18p15-|-18b20------18b20r(18)p15-18------------15-------15-|
g|----------------------------------|----------------------------------------------------|
d|----------------------------------|----------------------------------------------------|
a|----------------------------------|----------------------------------------------------|
e|----------------------------------|----------------------------------------------------|

This should be easier :)
07-07-2005 02:26 PM
Find all posts by this user Quote this message in a reply
pinkfloydfan1 Offline
Division Bell

Posts: 4,450
Joined: Aug 2004
Reputation: 36
Post: #175
 
pinkfloydfan1 Wrote:[code:1]--------------------------------1514VVVVVV-------------------------------
--18(20)vvvvvvvv\-----------------------------1512--15(17)vvvv--1512--
----------------------14(16)---------------------------------------------
--------------------------------------------------------------------------
--------------------------------------------------------------------------
--------------------------------------------------------------------------


----------------------------------------------------
---(15)1412\/-1412-------------------------------
------------------------11(12)===11--9--9\7-------
-----------------------------------------------5\---
----------------------------------------------------
----------------------------------------------------
[/code:1]

clue
pulse
its learning to fly is your one possibly the dogs solo

[Image: jedi.jpg]
07-11-2005 04:27 AM
Visit this user's website Find all posts by this user Quote this message in a reply
afaucheaux9188 Offline
Piper at the Gates of Dawn

Posts: 70
Joined: Jun 2004
Reputation: 0
Post: #176
 
is it shine on you crazy diamond
07-11-2005 05:50 PM
Find all posts by this user Quote this message in a reply
pinkfloydfan1 Offline
Division Bell

Posts: 4,450
Joined: Aug 2004
Reputation: 36
Post: #177
 
afaucheaux9188 Wrote:is it shine on you crazy diamond
so it is thats nothing how i play it tho

[Image: jedi.jpg]
07-12-2005 04:52 AM
Visit this user's website Find all posts by this user Quote this message in a reply
afaucheaux9188 Offline
Piper at the Gates of Dawn

Posts: 70
Joined: Jun 2004
Reputation: 0
Post: #178
 
thats not how i play it eather but it sounds close. anyway heres mine.


Nylon Strung guitar)

E----------------------------------------------------------------------------
B----------------------------------------------------------------------------
G----------------------------------------------------------------------------
D---2----2/4-4---4/5-5--5/-9--9--7--------7-9-10-7-9-5-7-7h9p7-5h7p5-3h5p3---
A----------------------------------------------------------------------------
E----------------------------------------------------------------------------

E----------------------------------------------------------------------------
B----------------------------------------------------------------------------
G----------------------------------------------------------------------------
D--2----2/4-4---4-5-5--5/-9--9--9--5--7------------7--10--9/-12----10p9--7---
A----------------------------------------------------------------------------
E----------------------------------------------------------------------------

E----------------------------------------------------------------------------
B----------------------------------------------------------------------------
G----------------------------------------------------------------------------
D--2---2/4-4---4/5-5---5/-9--9--7---------------7-10-9--5--9--7---5--7--7/9--
A----------------------------------------------------------------------------
E----------------------------------------------------------------------------

E----------------------------------------------------------------------------
B----------------------------------------------------------------------------
G----------------------------------------------------------------------------
D--2--2/4-4---4-5-5---5/-9--9--9--5--7----------7\5--3--2--3-----2-----------
A-------------------------------------------------------------5-----3--------
E---------------------------------------------------------------------5---3--
07-12-2005 09:16 AM
Find all posts by this user Quote this message in a reply
afaucheaux9188 Offline
Piper at the Gates of Dawn

Posts: 70
Joined: Jun 2004
Reputation: 0
Post: #179
 
shoould be easy its a little messed up because of how i put it on there
07-12-2005 09:18 AM
Find all posts by this user Quote this message in a reply
pinkfloydfan1 Offline
Division Bell

Posts: 4,450
Joined: Aug 2004
Reputation: 36
Post: #180
 
that looks like high hopes or welcome to to the machine i cant tell the diffrence with those two bits

my guess is high hopes




Edited By pinkfloydfan1 on 1121252915

[Image: jedi.jpg]
07-13-2005 03:07 AM
Visit this user's website Find all posts by this user Quote this message in a reply
Post Reply 


Possibly Related Threads...
Thread: Author Replies: Views: Last Post
  Ever have a  parent say "Even that don't sound goo paparazzi! 11 1,305 08-23-2007 10:11 AM
Last Post: cevor
  Who all can  read music? paparazzi! 23 1,797 08-21-2007 02:50 PM
Last Post: Freedom420
  Guess the Pink Floyd Guitar Tab - the 2nd S.H.E.E.P 77 4,918 08-05-2006 05:48 AM
Last Post: Wings on the Pig
  What exactly is "Rhythm  Guitar"??? Nunca 25 1,168 06-15-2006 07:10 AM
Last Post: mmarconi
  Anybody have 'Not Now John' and 'One Of My Turns' - Solo Tablature? AmusedToDeath726 2 318 06-05-2005 04:35 AM
Last Post: pinkfloydfan1