Guess the Pink Floyd Guitar Tab - the 2nd
#31
-----------------------------------------
-----------------------------------------
-----------------------------------------
---0-2-3-2---0-2-3-2--0-2-3-2----0-2-3-
-----------------------------------------
-----------------------------------------


this is a hard one
Reply
#32
a wrong version of another brick in the wall pt. 2
Reply
#33
S.H.E.E.P Wrote:ok i got it
again another easy but after sounding it out a million times
one of my turns
lol ur not so good as that game are u lol


but hey u got it im not complaining
Liam Creedon - Session Musician / Tutor
Http://www.liamcreedon.co.uk

Lead Guitarist of Wish You Were Floyd
Reply
#34
:sleepy: at least i didnt make it worse by guessing the wrong one..
Reply
#35
ye lol

well amused to death got it wrong on msn he said the abitw bad luck there
Liam Creedon - Session Musician / Tutor
Http://www.liamcreedon.co.uk

Lead Guitarist of Wish You Were Floyd
Reply
#36
haha
redeemed myself perhaps??
Reply
#37
lol ye add me to msn dogstadj@hotmail.com
Liam Creedon - Session Musician / Tutor
Http://www.liamcreedon.co.uk

Lead Guitarist of Wish You Were Floyd
Reply
#38
kkk you on right now?
Reply
#39
ye im talking to ya right now lol
Liam Creedon - Session Musician / Tutor
Http://www.liamcreedon.co.uk

Lead Guitarist of Wish You Were Floyd
Reply
#40
[code:1]E -------0----------------1----------------------------------0-------
B -----1---1------------3---3--------------1-------0-------1---1-----
G ---2-------2--------2-------2----------0-------1-------2-------2---
D ------------------0------------------2-------2---------------------
A -0---------------------------------3-----------------0-----------0-
E -------------------------------------------0-----------------------

[/code:1]
easy one
Reply


Possibly Related Threads...
Thread Author Replies Views Last Post
  Favorite Floyd Song to Play on Guitar? You CAN Avoid the Floyd 29 10,279 08-08-2014, 07:07 AM
Last Post: Nicky
  best guitar outro - for pionk floyd song S.H.E.E.P 37 9,344 10-29-2013, 08:53 AM
Last Post: Floydy
  Playing Early Floyd on Guitar ASunInTheEast 10 3,629 02-01-2012, 02:38 AM
Last Post: larryscott
  I'm new to guitar... learning guitar and chords FloydianGP 20 7,388 11-27-2008, 01:44 AM
Last Post: pinkfloydfan1
  Learning to play Pink Floyd tabs and Pink Floyd music ajabbar01 4 1,864 10-09-2008, 05:19 AM
Last Post: ajabbar01



Users browsing this thread: 1 Guest(s)